IPB
 
Reply to this topicStart new topic
People who can hear intervals, help me out, Trying to tab a song
dumbducky
post Mar 12 2017, 11:12 PM
Post #1





Group: Members
Posts: 1,004
Joined: 9-February 10
Member No.: 11,112



I've been trying to figure out the tab for Signals Midwest's January & Seven. It's a pretty simple song, but I don't have the formal training to actually do this. I've managed to get a decent amount of it figured out. There's a couple of notes that just sound off to me.

CODE
D#|----------------------|
A#|----------------------|
F#|----------------------|
C#|--------0--4--2--0----|
G#|-----0----------------|
C#|--0-------------------|


----------------------------------------------------------|
----------------------------------------------------------|
----------------------------------------------------------|
--------------------0--------4--------2h-4h-2h-0----------|
-----------0----------------------------------------------|
--0-------------------------------------------------------|


----------------------|----------------------|----------------------|
----------------------|----------------------|----------------------|
----------------------|----------------------|----------------------|
--------4--2--0--0----|--------5--4--2--0----|--------0--4--2--0----|
-----5----------------|-----5----------------|-----0----------------|
--5-------------------|--5-------------------|--0-------------------|


----------------------------------------------------------|
----------------------------------------------------------|
----------------------------------------------------------|
--------------------0--------4--------2h-4h-2h-0----------|
-----------0----------------------------------------------|
--0-------------------------------------------------------|


----------------------|----------|----------------------|----------------------|
----------------------|----------|----------------------|----------------------|
----------------------|----------|----------------------|----------------------|
--------5--4--2--0----|--5--0----|--0M-0M-0M-0M-0M-0M---|--0M-0M-0M-0M-0M-0M---|
-----5----------------|--5--0----|--0M-0M-0M-0M-0M-0M---|--0M-0M-0M-0M-0M-0M---|
--5-------------------|--5--0----|--0M-0M-0M-0M-0M-0M---|--0M-0M-0M-0M-0M-0M---|


----------------------|----------------------||
----------------------|----------------------||
----------------------|----------------------||
--2M-2M-2M-2M-2M-2M---|--5M-5M-5--5--5--5----||
--2M-2M-2M-2M-2M-2M---|--5M-5M-5--5--5--5----||
--2M-2M-2M-2M-2M-2M---|--5M-5M-5--5--5--5----||
(M is palm mute)

Specifically measure 3 and 4 is where I'm unsure. I think the measures are both supposed to be the same, but I can't quite figure out the exact notes. Also, not 100% sure about the chords in measure 8. They sound about right to me, though.
Go to the top of the page
 
+Quote Post
ohnoes
post Mar 13 2017, 12:43 AM
Post #2


Failure, Complete and Utter.


Group: Members
Posts: 3,057
Joined: 2-September 07
From: Toronto, Canada
Member No.: 711



k well maybe don't use such a fucked up tuning and you might actually be able to figure out intervals on your guitar


--------------------
Go to the top of the page
 
+Quote Post
?Rorshach?
post Mar 13 2017, 07:42 AM
Post #3





Group: Administrators
Posts: 10,390
Joined: 9-August 07
From: Milwaukee, WI
Member No.: 693



Have you just asked Max?


--------------------
Go to the top of the page
 
+Quote Post
dumbducky
post Mar 13 2017, 03:57 PM
Post #4





Group: Members
Posts: 1,004
Joined: 9-February 10
Member No.: 11,112



I ended up doing that. This is what he gave me:

CODE

----------------------|---------------------------------|
----------------------|---------------------------------|
----------------------|---------------------------------|
--------0--4--2--4---|--------0--4--2h--4h--2h--0--|
-----2----------------|-----2--------------------------|
--5-------------------|--5-----------------------------|



The second measure is definitely wrong compared to the studio recording (it should just be a repeat of the first measure), but it sounds better so I'm leaving it.
Go to the top of the page
 
+Quote Post

Reply to this topicStart new topic
2 User(s) are reading this topic (2 Guests and 0 Anonymous Users)
0 Members:

 



Lo-Fi Version Time is now: 23rd May 2017 - 11:40 AM